mail home
 
укр рус





концерти:
+380976583468
+380931613110
Киевский Рок Клуб
дата наступного концерту уточнюється.
усi концерти
21.12.2013 19:00 клуб "Гараж" (Ломоносова, 73)
 
 
6 струна опушена на тон нижче псевдівського строю, 
тобто на півтора нижче звичайного

акорди:
 куплет: Dm C Bb
 приспів: Gm Bb Dm (x3)
          Gm Bb A
таби:
 куплет:

1|---------------|---------------|---------------|---------------|
2|---------------|---------------|---------------|---------------|
3|---------------|---------------|---------------|-----0---------|
4|-0-0-0-2-3-2---|-0-0-0-2-3-2---|-5-5-0-2-3-2---|-3-3---3-2-0---|
5|-0-0---------3-|-0-0---------3-|-3-3---------3-|-1-1---------3-|
6|-0-0-----------|-0-0-----------|---------------|---------------|

 приспів:

1|-------------|-----------------|---------------|
2|-------------|-----------------|---------------|
3|-------------|-----------------|---------------|
4|-5-5-7-7-7-7-|-8-8-10-10-10-10-|---------------|
5|-5-5-5-5-5-5-|-8-8-8--8--8--8--|-0-1-0---------|
6|-5-5-5-5-5-5-|-8-8-8--8--8--8--|-0-----5-3-2-3-| (x3)

1|-------------|-----------------|---|
2|-------------|-----------------|---|
3|-------------|-----------------|---|
4|-5-5-7-7-7-7-|-8-8-10-10-10-10-|-7-|
5|-5-5-5-5-5-5-|-8-8-8--8--8--8--|-7-|
6|-5-5-5-5-5-5-|-8-8-8--8--8--8--|-7-|

 програш в кінці:

1|-------------------------|      |----|
2|-------------------------|      |----|
3|-------------------------|      |----|
4|-0-0-0-0-0-0-0-0---------|      |-5b-|
5|-0-0-0-0-0-0-0-0---------|      |----|
6|-0-0-0-0-0-0-0-0-3h5p3p2-| (x3) |----|


випадкове фото


myRadio.com.ua - Включи свою музыку
  mail-to: band@psevdo.com.ua
developed by pSeVdo friends www.web-development.com.ua