mail home
 
укр рус





концерти:
+380976583468
+380931613110
Киевский Рок Клуб
дата наступного концерту уточнюється.
усi концерти
21.12.2013 19:00 клуб "Гараж" (Ломоносова, 73)
 
 
Вступ і приспів: Em Em F#m G C C B G Em Em F#m G C C D D

або (в табах):

1|----------------|----------------|
2|----------------|----------------|
3|--------55xxxx4-|--------55xxxx77|
4|22xxxx4555xxxx45|22xxxx4555xxxx77|
5|22xxxx4533xxxx25|22xxxx4533xxxx55|
6|00xxxx23-------3|00xxxx23--------| (x2)

Після вступу але ще до слів коротка інтерлюдія

1|75------------------------12f-|
2|--8787-----------------12f----|
3|------57----------------------|
4|------------------------------|
5|------------------------------|
6|------------------------------|

А це грається під слова перших двох куплетів:

1|----------------------------|
2|----------------------------|
3|----------7-----------------|
4|---9-10-----9---9-10------9-|
5|-7------7-----7------7-10---|
6|----------------------------| (x3)

1|----------------------------|
2|----------------------------|
3|----------7-----------------|
4|---9-10-----9---9-10--------|
5|-7------7-----7------7-10-9-|
6|----------------------------|

Під третій куплет:

1|-------------------------|
2|-------------------------|
3|---4-5---7-5---4-5-----4-|
4|-2-4-5-2-7-5-2-4-5-2-5-4-|
5|-2-2-3-2-5-3-2-2-3-2-5-2-|
6|-0-----0-----0-----0-3---| (x3)

1|-------------------------|
2|-------------------------|
3|---4-5---7-5---4-5-------|
4|-2-4-5-2-7-5-2-4-5-2-5-4-|
5|-2-2-3-2-5-3-2-2-3-2-5-4-|
6|-0-----0-----0-----0-3-2-|

Під речитатив (останній куплет):

Em Bm C D

випадкове фото


myRadio.com.ua - Включи свою музыку
  mail-to: band@psevdo.com.ua
developed by pSeVdo friends www.web-development.com.ua