mail home
 
укр рус





концерти:
+380976583468
+380931613110
Киевский Рок Клуб
дата наступного концерту уточнюється.
усi концерти
21.12.2013 19:00 клуб "Гараж" (Ломоносова, 73)
 
 
акорди:
 куплет: F#m D Bm
 перехід між куплетом і приспівом: A Bm
 приспів: F#m A C#7

таби:
 куплет:

1|9-------10-------7-----|
2|--10-------10------7---|
3|-----11-------11-----7-|
4|-----------------------|
5|-----------------------|
6|-----------------------|

Приспів:

1|-------------------------------|
2|-------------------------------|
3|-------------------------------|
4|-4-4-6-7-7-9-11-11-12-11-9-7-6-|
5|-4-4-6-7-7-9-11-11-12-11-9-7-6-|
6|-2-2-4-5-5-7-9--9--10-9--7-5-4-|


випадкове фото


myRadio.com.ua - Включи свою музыку
  mail-to: band@psevdo.com.ua
developed by pSeVdo friends www.web-development.com.ua