mail home
 
укр рус





концерти:
+380976583468
+380931613110
Киевский Рок Клуб
дата наступного концерту уточнюється.
усi концерти
21.12.2013 19:00 клуб "Гараж" (Ломоносова, 73)
Акорди і табулатури | Номер телефону
 
 
акорди:
 куплет і псевдо-приспів: Dm F G F
 приспів: Dm c Bb Dm C Bb C Bb A C Bb C
таби:
 (6 струна опушена на тон нижче псевдівського строю, тобто на півтора нижче звичайного)
 куплет:

1|---|---|---|---|
2|---|---|---|---|
3|---|---|---|---|
4|-0-|-3-|-5-|-3-|
5|-5-|-5-|-5-|-5-|
6|-0-|-3-|-5-|-3-|

псевдо-приспів:

1|-------|-------|-------|-------------|
2|-------|-------|-------|-------------|
3|-------|-------|-------|-------------|
4|-------|-3-2-3-|-5-3-5-|-3-5-3-------|
5|-5-3-5-|-------|-------|-------5-3-5-|
6|-------|-------|-------|-------------|

приспів:

1|------------|------------|------------|------------|------|
2|------------|------------|------------|------------|------|
3|77xxxx77xx53|77xxxx77xx53|55xxxx55xx32|55xxxx55xx13|77----|
4|77xxxx77xx53|77xxxx77xx53|55xxxx55xx32|55xxxx55xx13|77-77-|
5|55xxxx55xx31|55xxxx55xx31|33xxxx33xx10|33xxxx33xx13|55-55-|
6|------------|------------|------------|------------|------|

після останнього приспіву:

1|---|---|---|-------|
2|---|---|---|-------|
3|---|---|---|-77-77-|
4|-3-|-5-|-8-|-77-77-|
5|-3-|-5-|-8-|-55-55-|
6|-3-|-5-|-8-|-------|


випадкове фото


myRadio.com.ua - Включи свою музыку
  mail-to: band@psevdo.com.ua
developed by pSeVdo friends www.web-development.com.ua