mail home
 
укр рус





концерти:
+380976583468
+380931613110
Киевский Рок Клуб
дата наступного концерту уточнюється.
усi концерти
21.12.2013 19:00 клуб "Гараж" (Ломоносова, 73)
 
 
акорди: 
 куплет: Bm D F#m
 приспів: Bm Em D F#
таби:
 приспів:

1|--------|--------|--------|--------|
2|--------|--------|--------|--------|
3|--------|--------|--------|--------|
4|44444444|--------|77777777|--------|
5|22522252|22222222|55955595|44444444|
6|--------|00300030|--------|22522252|

 соло між першим та другим куплетами:

1|-------0-----------2-2-2-3-2-0-2-0---0-----|
2|-0-2-3---3-2-3-2-------------------3---0-2-|
3|-----------------2-------------------------|
4|-------------------------------------------|
5|-------------------------------------------|
6|-------------------------------------------|

1|----------12----------------14-14-14-15-14-12-14-12----12-------|
2|-12-14-15----15-14-15-14----------------------------15----12-14-|
3|-------------------------14-------------------------------------|
4|----------------------------------------------------------------|
5|----------------------------------------------------------------|
6|----------------------------------------------------------------|

 соло в кінці:

1|-7-7-10-7-7-7-10-7-----------------10-10-14-10-10-14-10-------------------|
2|-------------------5-5-8-5-5-5-8-5----------------------7-7-10-7-7-7-10-7-|
3|--------------------------------------------------------------------------|
4|--------------------------------------------------------------------------|
5|--------------------------------------------------------------------------|
6|--------------------------------------------------------------------------|

1|-7-7-10-7-7-7-10-7-----------------10-10-14-10-10-14-10----------------------|
2|-------------------5-5-8-5-5-5-8-5----------------------7-7-10-7-7-7-10-s-14-|
3|-----------------------------------------------------------------------------|
4|-----------------------------------------------------------------------------|
5|-----------------------------------------------------------------------------|
6|-----------------------------------------------------------------------------|


випадкове фото


myRadio.com.ua - Включи свою музыку
  mail-to: band@psevdo.com.ua
developed by pSeVdo friends www.web-development.com.ua