mail home
 
укр рус





концерти:
+380976583468
+380931613110
Киевский Рок Клуб
дата наступного концерту уточнюється.
усi концерти
21.12.2013 19:00 клуб "Гараж" (Ломоносова, 73)
Акорди і табулатури | Ти часто плачеш
 
 
акорди:
 F#m C#M D Bm C#7
 D C#m Bm C#7
таби:
 приспів:

1|--------------------------------|
2|--------------------------------|
3|--------------------------------|
4|--------66677777777999994444666-|
5|4445555544444444555555552222444-|
6|22222222------------------------| (x2)

1|---------|
2|---------|
3|-7-6-4-6-|
4|-7-6-4-6-|
5|-5-4-2-4-|
6|---------|

 куплет:

1|-------------|-9-12-9-9-12-|-10-14-10-10-14-|-------14-------16-|
2|-7-10-7-7-10-|-------------|----------------|-12-12----14-14----|
3|-------------|-------------|----------------|-------------------|
4|-------------|-------------|----------------|-------------------|
5|-------------|-------------|----------------|-------------------|
6|-------------|-------------|----------------|-------------------|

випадкове фото


myRadio.com.ua - Включи свою музыку
  mail-to: band@psevdo.com.ua
developed by pSeVdo friends www.web-development.com.ua