mail home
 
укр рус





концерти:
+380976583468
+380931613110
Киевский Рок Клуб
дата наступного концерту уточнюється.
усi концерти
21.12.2013 19:00 клуб "Гараж" (Ломоносова, 73)
 
 
акорди:
 вступ: Em Am G C
 куплет: Em Am C
         Em Am B C F#m G
 приспів: Em G D Bm
 кінець: Em Am G C B F#m G Em

таби:
 приспів:

1|---------------------------|---------------------------|
2|---------------------------|---------------------------|
3|-----------2h4-2h4-2h4-2h4-|-----------2h4-2h4-2h4-2h4-|
4|-2-2-2-2-2-----------------|-5-5-5-5-5-----------------|
5|---------------------------|---------------------------|
6|---------------------------|---------------------------|

1|---------------------------|---------------------------|
2|---------------------------|---------------------------|
3|-----------2h4-2h4-2h4-2h4-|---------------------------|
4|-0-0-0-0-0-----------------|-4-4-4-4-4-5p4-5p4-5p4-5p4-|
5|---------------------------|---------------------------|
6|---------------------------|---------------------------|


випадкове фото


myRadio.com.ua - Включи свою музыку
  mail-to: band@psevdo.com.ua
developed by pSeVdo friends www.web-development.com.ua