mail home
 
укр рус





концерти:
+380976583468
+380931613110
Киевский Рок Клуб
дата наступного концерту уточнюється.
усi концерти
21.12.2013 19:00 клуб "Гараж" (Ломоносова, 73)
Акорди і табулатури | Лиш краплю погляду свого
 
 

Лиш краплю погляду свого

 

Куплет

  G           D/F#

1|-----------|-----------|
2|----0----0-|----0----0-|
3|---2----2--|---2----2--|
4|--0----0---|--0----0---|
5|-----------|-----------|
6|-3----3----|-2----2----|

  Em          C

1|-----------|----------------|
2|----0----0-|----1-----3-1-0-|
3|---0----0--|---0----0-------|
4|--2----2---|--2----2--------|
5|-----------|-3----3---------|
6|-0----0----|----------------|

Приспів

  Em          D

1|----------|----------|
2|----------|----------|
3|-4--4--4--|-0--0--0--|
4|--5--5--5-|--4--4--4-|
5|---7--7---|---5--5---|
6|----------|----------|

  C           D

1|----------|---------|
2|----------|---------|
3|-5--5--5--|-7--5--4-|
4|--2--2--2-|--4--4---|
5|---3--3---|---5--5--|
6|----------|---------|


випадкове фото


myRadio.com.ua - Включи свою музыку
  mail-to: band@psevdo.com.ua
developed by pSeVdo friends www.web-development.com.ua